  0
SECTION
  2
HEADER
  9
$ACADVER
  1
AC1015
  9
$ACADMAINTVER
 70
     6
  9
$DWGCODEPAGE
  3
ANSI_1254
  9
$INSBASE
 10
0.0
 20
0.0
 30
0.0
  9
$EXTMIN
 10
0.0
 20
0.0
 30
0.0
  9
$EXTMAX
 10
279.4
 20
215.9
 30
0.0
  9
$LIMMIN
 10
0.0
 20
0.0
  9
$LIMMAX
 10
279.4
 20
215.9
  9
$ORTHOMODE
 70
     0
  9
$REGENMODE
 70
     1
  9
$FILLMODE
 70
     1
  9
$QTEXTMODE
 70
     0
  9
$MIRRTEXT
 70
     1
  9
$LTSCALE
 40
1.0
  9
$ATTMODE
 70
     1
  9
$TEXTSIZE
 40
3.5
  9
$TRACEWID
 40
1.0
  9
$TEXTSTYLE
  7
Standard
  9
$CLAYER
  8
0
  9
$CELTYPE
  6
ByLayer
  9
$CECOLOR
 62
   256
  9
$CELTSCALE
 40
1.0
  9
$DISPSILH
 70
     0
  9
$DIMSCALE
 40
1.0
  9
$DIMASZ
 40
3.5
  9
$DIMEXO
 40
1.0
  9
$DIMDLI
 40
3.75
  9
$DIMRND
 40
0.0
  9
$DIMDLE
 40
0.0
  9
$DIMEXE
 40
1.0
  9
$DIMTP
 40
0.0
  9
$DIMTM
 40
0.0
  9
$DIMTXT
 40
3.5
  9
$DIMCEN
 40
2.5
  9
$DIMTSZ
 40
0.0
  9
$DIMTOL
 70
     0
  9
$DIMLIM
 70
     0
  9
$DIMTIH
 70
     1
  9
$DIMTOH
 70
     1
  9
$DIMSE1
 70
     0
  9
$DIMSE2
 70
     0
  9
$DIMTAD
 70
     1
  9
$DIMZIN
 70
     0
  9
$DIMBLK
  1

  9
$DIMASO
 70
     1
  9
$DIMSHO
 70
     1
  9
$DIMPOST
  1

  9
$DIMAPOST
  1

  9
$DIMALT
 70
     0
  9
$DIMALTD
 70
     3
  9
$DIMALTF
 40
0.0393700787
  9
$DIMLFAC
 40
1.0
  9
$DIMTOFL
 70
     1
  9
$DIMTVP
 40
0.0
  9
$DIMTIX
 70
     0
  9
$DIMSOXD
 70
     0
  9
$DIMSAH
 70
     0
  9
$DIMBLK1
  1

  9
$DIMBLK2
  1

  9
$DIMSTYLE
  2
ISO-25
  9
$DIMCLRD
 70
     0
  9
$DIMCLRE
 70
     0
  9
$DIMCLRT
 70
     0
  9
$DIMTFAC
 40
1.0
  9
$DIMGAP
 40
1.524
  9
$DIMJUST
 70
     0
  9
$DIMSD1
 70
     0
  9
$DIMSD2
 70
     0
  9
$DIMTOLJ
 70
     0
  9
$DIMTZIN
 70
     0
  9
$DIMALTZ
 70
     0
  9
$DIMALTTZ
 70
     0
  9
$DIMUPT
 70
     0
  9
$DIMDEC
 70
     2
  9
$DIMTDEC
 70
     2
  9
$DIMALTU
 70
     2
  9
$DIMALTTD
 70
     3
  9
$DIMTXSTY
  7
Standard
  9
$DIMAUNIT
 70
     0
  9
$DIMADEC
 70
     2
  9
$DIMALTRND
 40
0.0
  9
$DIMAZIN
 70
     0
  9
$DIMDSEP
 70
    44
  9
$DIMATFIT
 70
     3
  9
$DIMFRAC
 70
     0
  9
$DIMLDRBLK
  1

  9
$DIMLUNIT
 70
     2
  9
$DIMLWD
 70
    -2
  9
$DIMLWE
 70
    -2
  9
$DIMTMOVE
 70
     0
  9
$LUNITS
 70
     2
  9
$LUPREC
 70
     2
  9
$SKETCHINC
 40
1.0
  9
$FILLETRAD
 40
10.0
  9
$AUNITS
 70
     0
  9
$AUPREC
 70
     2
  9
$MENU
  1
.
  9
$ELEVATION
 40
0.0
  9
$PELEVATION
 40
0.0
  9
$THICKNESS
 40
0.0
  9
$LIMCHECK
 70
     0
  9
$CHAMFERA
 40
0.0
  9
$CHAMFERB
 40
0.0
  9
$CHAMFERC
 40
0.0
  9
$CHAMFERD
 40
0.0
  9
$SKPOLY
 70
     0
  9
$TDCREATE
 40
2458985.636343739
  9
$TDUCREATE
 40
2458985.511343739
  9
$TDUPDATE
 40
2458985.636344039
  9
$TDUUPDATE
 40
2458985.511344039
  9
$TDINDWG
 40
0.0000000116
  9
$TDUSRTIMER
 40
0.0000000116
  9
$USRTIMER
 70
     1
  9
$ANGBASE
 50
0.0
  9
$ANGDIR
 70
     0
  9
$PDMODE
 70
     0
  9
$PDSIZE
 40
-1.0
  9
$PLINEWID
 40
0.0
  9
$SPLFRAME
 70
     0
  9
$SPLINETYPE
 70
     6
  9
$SPLINESEGS
 70
     8
  9
$HANDSEED
  5
C0
  9
$SURFTAB1
 70
     6
  9
$SURFTAB2
 70
     6
  9
$SURFTYPE
 70
     6
  9
$SURFU
 70
     6
  9
$SURFV
 70
     6
  9
$UCSBASE
  2

  9
$UCSNAME
  2

  9
$UCSORG
 10
0.0
 20
0.0
 30
0.0
  9
$UCSXDIR
 10
1.0
 20
0.0
 30
0.0
  9
$UCSYDIR
 10
0.0
 20
1.0
 30
0.0
  9
$UCSORTHOREF
  2

  9
$UCSORTHOVIEW
 70
     0
  9
$UCSORGTOP
 10
0.0
 20
0.0
 30
0.0
  9
$UCSORGBOTTOM
 10
0.0
 20
0.0
 30
0.0
  9
$UCSORGLEFT
 10
0.0
 20
0.0
 30
0.0
  9
$UCSORGRIGHT
 10
0.0
 20
0.0
 30
0.0
  9
$UCSORGFRONT
 10
0.0
 20
0.0
 30
0.0
  9
$UCSORGBACK
 10
0.0
 20
0.0
 30
0.0
  9
$PUCSBASE
  2

  9
$PUCSNAME
  2

  9
$PUCSORG
 10
0.0
 20
0.0
 30
0.0
  9
$PUCSXDIR
 10
1.0
 20
0.0
 30
0.0
  9
$PUCSYDIR
 10
0.0
 20
1.0
 30
0.0
  9
$PUCSORTHOREF
  2

  9
$PUCSORTHOVIEW
 70
     0
  9
$PUCSORGTOP
 10
0.0
 20
0.0
 30
0.0
  9
$PUCSORGBOTTOM
 10
0.0
 20
0.0
 30
0.0
  9
$PUCSORGLEFT
 10
0.0
 20
0.0
 30
0.0
  9
$PUCSORGRIGHT
 10
0.0
 20
0.0
 30
0.0
  9
$PUCSORGFRONT
 10
0.0
 20
0.0
 30
0.0
  9
$PUCSORGBACK
 10
0.0
 20
0.0
 30
0.0
  9
$USERI1
 70
     0
  9
$USERI2
 70
     0
  9
$USERI3
 70
     0
  9
$USERI4
 70
     0
  9
$USERI5
 70
     0
  9
$USERR1
 40
0.0
  9
$USERR2
 40
0.0
  9
$USERR3
 40
0.0
  9
$USERR4
 40
0.0
  9
$USERR5
 40
0.0
  9
$WORLDVIEW
 70
     1
  9
$SHADEDGE
 70
     3
  9
$SHADEDIF
 70
    70
  9
$TILEMODE
 70
     1
  9
$MAXACTVP
 70
    64
  9
$PINSBASE
 10
0.0
 20
0.0
 30
0.0
  9
$PLIMCHECK
 70
     0
  9
$PEXTMIN
 10
1.0000000000E+20
 20
1.0000000000E+20
 30
1.0000000000E+20
  9
$PEXTMAX
 10
-1.0000000000E+20
 20
-1.0000000000E+20
 30
-1.0000000000E+20
  9
$PLIMMIN
 10
0.0
 20
0.0
  9
$PLIMMAX
 10
420.0
 20
297.0
  9
$UNITMODE
 70
     0
  9
$VISRETAIN
 70
     1
  9
$PLINEGEN
 70
     0
  9
$PSLTSCALE
 70
     1
  9
$TREEDEPTH
 70
  3020
  9
$CMLSTYLE
  2
Standard
  9
$CMLJUST
 70
     0
  9
$CMLSCALE
 40
20.0
  9
$PROXYGRAPHICS
 70
     1
  9
$MEASUREMENT
 70
     1
  9
$CELWEIGHT
370
    -1
  9
$ENDCAPS
280
     0
  9
$JOINSTYLE
280
     0
  9
$LWDISPLAY
290
     1
  9
$INSUNITS
 70
     4
  9
$HYPERLINKBASE
  1

  9
$STYLESHEET
  1

  9
$XEDIT
290
     1
  9
$CEPSNTYPE
380
     0
  9
$PSTYLEMODE
290
     1
  9
$FINGERPRINTGUID
  2
{622442b8-d4d3-4139-90ee-cdf9e49e0788}
  9
$VERSIONGUID
  2
{FAEB1C32-E019-11D5-929B-00C0DF256EC4}
  9
$EXTNAMES
290
     1
  9
$PSVPSCALE
 40
0.0
  9
$OLESTARTUP
290
     0
  0
ENDSEC
  0
SECTION
  2
CLASSES
  0
CLASS
  1
ACDBDICTIONARYWDFLT
  2
AcDbDictionaryWithDefault
  3
ObjectDBX Classes
 90
        0
280
     0
281
     0
  0
CLASS
  1
VISUALSTYLE
  2
AcDbVisualStyle
  3
ObjectDBX Classes
 90
     4095
280
     0
281
     0
  0
CLASS
  1
MATERIAL
  2
AcDbMaterial
  3
ObjectDBX Classes
 90
     1153
280
     0
281
     0
  0
CLASS
  1
SCALE
  2
AcDbScale
  3
ObjectDBX Classes
 90
     1153
280
     0
281
     0
  0
CLASS
  1
TABLESTYLE
  2
AcDbTableStyle
  3
ObjectDBX Classes
 90
     4095
280
     0
281
     0
  0
CLASS
  1
MLEADERSTYLE
  2
AcDbMLeaderStyle
  3
ACDB_MLEADERSTYLE_CLASS
 90
     4095
280
     0
281
     0
  0
CLASS
  1
SUN
  2
AcDbSun
  3
SCENEOE
 90
     1153
280
     0
281
     0
  0
CLASS
  1
ACDBPLACEHOLDER
  2
AcDbPlaceHolder
  3
ObjectDBX Classes
 90
        0
280
     0
281
     0
  0
CLASS
  1
LAYOUT
  2
AcDbLayout
  3
ObjectDBX Classes
 90
        0
280
     0
281
     0
  0
ENDSEC
  0
SECTION
  2
TABLES
  0
TABLE
  2
VPORT
  5
8
330
0
100
AcDbSymbolTable
 70
     1
  0
VPORT
  5
29
330
8
100
AcDbSymbolTableRecord
100
AcDbViewportTableRecord
  2
*Active
 70
     0
 10
0.0
 20
0.0
 11
1.0
 21
1.0
 12
139.7
 22
107.95
 13
0.0
 23
0.0
 14
10.0
 24
10.0
 15
10.0
 25
10.0
 16
0.0
 26
0.0
 36
1.0
 17
0.0
 27
0.0
 37
0.0
 40
215.9
 41
1.2941176471
 42
50.0
 43
0.0
 44
0.0
 50
0.0
 51
0.0
 71
     0
 72
  2000
 73
     1
 74
     3
 75
     0
 76
     0
 77
     0
 78
     0
281
     0
 65
     1
110
0.0
120
0.0
130
0.0
111
1.0
121
0.0
131
0.0
112
0.0
122
1.0
132
0.0
 79
     0
146
0.0
  0
ENDTAB
  0
TABLE
  2
LTYPE
  5
5
330
0
100
AcDbSymbolTable
 70
     6
  0
LTYPE
  5
14
330
5
100
AcDbSymbolTableRecord
100
AcDbLinetypeTableRecord
  2
ByBlock
 70
     0
  3

 72
    65
 73
     0
 40
0.0
  0
LTYPE
  5
15
330
5
100
AcDbSymbolTableRecord
100
AcDbLinetypeTableRecord
  2
ByLayer
 70
     0
  3

 72
    65
 73
     0
 40
0.0
  0
LTYPE
  5
16
330
5
100
AcDbSymbolTableRecord
100
AcDbLinetypeTableRecord
  2
Continuous
 70
     0
  3
Solid line
 72
    65
 73
     0
 40
0.0
  0
LTYPE
  5
6E
330
5
100
AcDbSymbolTableRecord
100
AcDbLinetypeTableRecord
  2
HIDDEN
 70
     0
  3
Hidden __ __ __ __ __ __ __ __ __ __ __ __ __ __
 72
    65
 73
     2
 40
1.905
 49
1.27
 74
     0
 49
-0.635
 74
     0
  0
LTYPE
  5
6F
330
5
100
AcDbSymbolTableRecord
100
AcDbLinetypeTableRecord
  2
PHANTOM
 70
     0
  3
Phantom ______  __  __  ______  __  __  ______
 72
    65
 73
     6
 40
12.7
 49
6.35
 74
     0
 49
-1.27
 74
     0
 49
1.27
 74
     0
 49
-1.27
 74
     0
 49
1.27
 74
     0
 49
-1.27
 74
     0
  0
LTYPE
  5
70
330
5
100
AcDbSymbolTableRecord
100
AcDbLinetypeTableRecord
  2
CENTER
 70
     0
  3
Center ____ _ ____ _ ____ _ ____ _ ____ _ ____
 72
    65
 73
     4
 40
10.16
 49
6.35
 74
     0
 49
-1.27
 74
     0
 49
1.27
 74
     0
 49
-1.27
 74
     0
  0
LTYPE
  5
71
330
5
100
AcDbSymbolTableRecord
100
AcDbLinetypeTableRecord
  2
CENTERX2
 70
     0
  3
Center (2x) ________  __  ________  __  _____
 72
    65
 73
     4
 40
20.32
 49
12.7
 74
     0
 49
-2.54
 74
     0
 49
2.54
 74
     0
 49
-2.54
 74
     0
  0
LTYPE
  5
72
330
5
100
AcDbSymbolTableRecord
100
AcDbLinetypeTableRecord
  2
DOT2
 70
     0
  3
Dot (.5x) ........................................
 72
    65
 73
     2
 40
0.635
 49
0.0
 74
     0
 49
-0.635
 74
     0
  0
ENDTAB
  0
TABLE
  2
LAYER
  5
2
330
0
100
AcDbSymbolTable
 70
    17
  0
LAYER
  5
10
330
2
100
AcDbSymbolTableRecord
100
AcDbLayerTableRecord
  2
0
 70
     0
 62
     7
  6
Continuous
370
    -3
390
F
  0
LAYER
  5
73
330
2
100
AcDbSymbolTableRecord
100
AcDbLayerTableRecord
  2
FORMAT
 70
     0
 62
     7
  6
Continuous
370
    -3
390
F
  0
LAYER
  5
74
330
2
100
AcDbSymbolTableRecord
100
AcDbLayerTableRecord
  2
YARDIMCI_GEOMETRI
 70
     0
 62
    -6
  6
Continuous
290
     0
370
    -3
390
F
  0
LAYER
  5
75
330
2
100
AcDbSymbolTableRecord
100
AcDbLayerTableRecord
  2
SAYFA_CERCEVESI
 70
     0
 62
     7
  6
Continuous
370
    25
390
F
  0
LAYER
  5
76
330
2
100
AcDbSymbolTableRecord
100
AcDbLayerTableRecord
  2
ANTET
 70
     0
 62
     7
  6
Continuous
370
    -3
390
F
  0
LAYER
  5
77
330
2
100
AcDbSymbolTableRecord
100
AcDbLayerTableRecord
  2
OLCU
 70
     0
 62
   150
  6
Continuous
370
    -3
390
F
  0
LAYER
  5
78
330
2
100
AcDbSymbolTableRecord
100
AcDbLayerTableRecord
  2
METIN
 70
     0
 62
    96
  6
Continuous
370
    -3
390
F
  0
LAYER
  5
79
330
2
100
AcDbSymbolTableRecord
100
AcDbLayerTableRecord
  2
BALON
 70
     0
 62
     5
  6
Continuous
370
    -3
390
F
  0
LAYER
  5
7A
330
2
100
AcDbSymbolTableRecord
100
AcDbLayerTableRecord
  2
VURGU
 70
     0
 62
     7
  6
Continuous
370
    -3
390
F
  0
LAYER
  5
7B
330
2
100
AcDbSymbolTableRecord
100
AcDbLayerTableRecord
  2
SILIK
 70
     0
 62
     7
  6
Continuous
370
    -3
390
F
  0
LAYER
  5
7C
330
2
100
AcDbSymbolTableRecord
100
AcDbLayerTableRecord
  2
MODEL
 70
     0
 62
     7
  6
Continuous
370
    -3
390
F
  0
LAYER
  5
7D
330
2
100
AcDbSymbolTableRecord
100
AcDbLayerTableRecord
  2
DETAYLANDıRMA
 70
     0
 62
   190
  6
Continuous
370
    -3
390
F
  0
LAYER
  5
7E
330
2
100
AcDbSymbolTableRecord
100
AcDbLayerTableRecord
  2
TOLERANS
 70
     0
 62
   230
  6
Continuous
370
    -3
390
F
  0
LAYER
  5
7F
330
2
100
AcDbSymbolTableRecord
100
AcDbLayerTableRecord
  2
MERKEZ_CIZGILERI
 70
     0
 62
    30
  6
Continuous
370
    -3
390
F
  0
LAYER
  5
80
330
2
100
AcDbSymbolTableRecord
100
AcDbLayerTableRecord
  2
KESIT-DETAY_CIZGILERI
 70
     0
 62
     7
  6
Continuous
370
    -3
390
F
  0
LAYER
  5
81
330
2
100
AcDbSymbolTableRecord
100
AcDbLayerTableRecord
  2
\U+041E\U+0421\U+0415\U+0412\U+042B\U+0415
 70
     0
 62
     7
  6
Continuous
370
    -3
390
F
  0
LAYER
  5
82
330
2
100
AcDbSymbolTableRecord
100
AcDbLayerTableRecord
  2
\U+0412\U+041E\U+0414\U+042F\U+041D\U+042B\U+0415_\U+0417\U+041D\U+0410\U+041A\U+0418
 70
     0
 62
    11
  6
Continuous
370
    -3
390
F
  0
ENDTAB
  0
TABLE
  2
STYLE
  5
3
330
0
100
AcDbSymbolTable
 70
     1
  0
STYLE
  5
11
330
3
100
AcDbSymbolTableRecord
100
AcDbTextStyleTableRecord
  2
Standard
 70
     0
 40
0.0
 41
1.0
 50
0.0
 71
     0
 42
3.5
  3
txt
  4

  0
ENDTAB
  0
TABLE
  2
VIEW
  5
6
330
0
100
AcDbSymbolTable
 70
     0
  0
ENDTAB
  0
TABLE
  2
UCS
  5
7
330
0
100
AcDbSymbolTable
 70
     0
  0
ENDTAB
  0
TABLE
  2
APPID
  5
9
330
0
100
AcDbSymbolTable
 70
     1
  0
APPID
  5
12
330
9
100
AcDbSymbolTableRecord
100
AcDbRegAppTableRecord
  2
ACAD
 70
     0
  0
ENDTAB
  0
TABLE
  2
DIMSTYLE
  5
A
330
0
100
AcDbSymbolTable
 70
     1
100
AcDbDimStyleTable
  0
DIMSTYLE
105
27
330
A
100
AcDbSymbolTableRecord
100
AcDbDimStyleTableRecord
  2
ISO-25
 70
     0
 41
2.5
 42
0.625
 43
3.75
 44
1.25
 73
     0
 74
     0
 77
     1
 78
     8
140
2.5
141
2.5
143
0.0393700787
147
0.625
171
     3
172
     1
178
     0
271
     2
272
     2
274
     3
278
    44
283
     0
284
     8
340
11
  0
ENDTAB
  0
TABLE
  2
BLOCK_RECORD
  5
1
330
0
100
AcDbSymbolTable
 70
     1
  0
BLOCK_RECORD
  5
1F
330
1
100
AcDbSymbolTableRecord
100
AcDbBlockTableRecord
  2
*Model_Space
340
22
  0
BLOCK_RECORD
  5
1B
330
1
100
AcDbSymbolTableRecord
100
AcDbBlockTableRecord
  2
*Paper_Space
340
1E
  0
BLOCK_RECORD
  5
23
330
1
100
AcDbSymbolTableRecord
100
AcDbBlockTableRecord
  2
*Paper_Space0
340
26
  0
ENDTAB
  0
ENDSEC
  0
SECTION
  2
BLOCKS
  0
BLOCK
  5
20
330
1F
100
AcDbEntity
  8
0
100
AcDbBlockBegin
  2
*Model_Space
 70
     0
 10
0.0
 20
0.0
 30
0.0
  3
*Model_Space
  1

  0
ENDBLK
  5
21
330
1F
100
AcDbEntity
  8
0
100
AcDbBlockEnd
  0
BLOCK
  5
1C
330
1B
100
AcDbEntity
 67
     1
  8
0
100
AcDbBlockBegin
  2
*Paper_Space
 70
     0
 10
0.0
 20
0.0
 30
0.0
  3
*Paper_Space
  1

  0
ENDBLK
  5
1D
330
1B
100
AcDbEntity
 67
     1
  8
0
100
AcDbBlockEnd
  0
BLOCK
  5
24
330
23
100
AcDbEntity
  8
0
100
AcDbBlockBegin
  2
*Paper_Space0
 70
     0
 10
0.0
 20
0.0
 30
0.0
  3
*Paper_Space0
  1

  0
ENDBLK
  5
25
330
23
100
AcDbEntity
  8
0
100
AcDbBlockEnd
  0
ENDSEC
  0
SECTION
  2
ENTITIES
  0
CIRCLE
  5
83
330
1F
100
AcDbEntity
  8
0
  6
Continuous
 62
     7
370
    25
100
AcDbCircle
 10
135.9944086538
 20
118.27271875
 30
0.0
 40
314.9999999999999
  0
CIRCLE
  5
84
330
1F
100
AcDbEntity
  8
0
  6
Continuous
 62
     7
370
    25
100
AcDbCircle
 10
135.9944086538
 20
118.27271875
 30
0.0
 40
257.8
  0
CIRCLE
  5
85
330
1F
100
AcDbEntity
  8
0
  6
Continuous
 62
     7
370
    25
100
AcDbCircle
 10
135.9944086538
 20
118.27271875
 30
0.0
 40
325.0
  0
CIRCLE
  5
86
330
1F
100
AcDbEntity
  8
0
  6
Continuous
 62
     7
370
    25
100
AcDbCircle
 10
135.9944086538
 20
118.27271875
 30
0.0
 40
355.0
  0
LINE
  5
87
330
1F
100
AcDbEntity
  8
0
  6
Continuous
 62
     7
370
    25
100
AcDbLine
 10
490.9944086538
 20
822.072855338
 30
0.0
 11
490.9944086538
 21
887.072855338
 31
0.0
  0
LINE
  5
88
330
1F
100
AcDbEntity
  8
0
  6
Continuous
 62
     7
370
    25
100
AcDbLine
 10
-219.0055913462
 20
887.072855338
 30
0.0
 11
-219.0055913462
 21
822.072855338
 31
0.0
  0
LINE
  5
89
330
1F
100
AcDbEntity
  8
0
  6
Continuous
 62
     7
370
    25
100
AcDbLine
 10
460.9944086538
 20
887.072855338
 30
0.0
 11
450.9944086538
 21
957.072855338
 31
0.0
  0
LINE
  5
8A
330
1F
100
AcDbEntity
  8
0
  6
Continuous
 62
     7
370
    25
100
AcDbLine
 10
-179.0055913462
 20
957.072855338
 30
0.0
 11
-189.0055913462
 21
887.072855338
 31
0.0
  0
LINE
  5
8B
330
1F
100
AcDbEntity
  8
0
  6
Continuous
 62
     7
370
    25
100
AcDbLine
 10
450.9944086538
 20
957.072855338
 30
0.0
 11
450.9944086538
 21
1226.072855338
 31
0.0
  0
LINE
  5
8C
330
1F
100
AcDbEntity
  8
0
  6
Continuous
 62
     7
370
    25
100
AcDbLine
 10
-179.0055913462
 20
1226.072855338
 30
0.0
 11
-179.0055913462
 21
957.072855338
 31
0.0
  0
LINE
  5
8D
330
1F
100
AcDbEntity
  8
0
  6
Continuous
 62
     7
370
    25
100
AcDbLine
 10
490.9944086538
 20
822.072855338
 30
0.0
 11
-219.0055913462
 21
822.072855338
 31
0.0
  0
LINE
  5
8E
330
1F
100
AcDbEntity
  8
0
  6
Continuous
 62
     7
370
    25
100
AcDbLine
 10
490.9944086538
 20
887.072855338
 30
0.0
 11
-219.0055913462
 21
887.072855338
 31
0.0
  0
LINE
  5
8F
330
1F
100
AcDbEntity
  8
0
  6
Continuous
 62
     7
370
    25
100
AcDbLine
 10
450.9944086538
 20
957.072855338
 30
0.0
 11
-179.0055913462
 21
957.072855338
 31
0.0
  0
LINE
  5
90
330
1F
100
AcDbEntity
  8
0
  6
Continuous
 62
     7
370
    25
100
AcDbLine
 10
450.9944086538
 20
1226.072855338
 30
0.0
 11
-179.0055913462
 21
1226.072855338
 31
0.0
  0
LINE
  5
91
330
1F
100
AcDbEntity
  8
0
  6
Continuous
 62
     7
370
    25
100
AcDbLine
 10
-674.352720734
 20
473.27271875
 30
0.0
 11
-739.352720734
 21
473.27271875
 31
0.0
  0
LINE
  5
92
330
1F
100
AcDbEntity
  8
0
  6
Continuous
 62
     7
370
    25
100
AcDbLine
 10
-739.352720734
 20
-236.72728125
 30
0.0
 11
-674.352720734
 21
-236.72728125
 31
0.0
  0
LINE
  5
93
330
1F
100
AcDbEntity
  8
0
  6
Continuous
 62
     7
370
    25
100
AcDbLine
 10
-739.352720734
 20
443.27271875
 30
0.0
 11
-809.352720734
 21
433.27271875
 31
0.0
  0
LINE
  5
94
330
1F
100
AcDbEntity
  8
0
  6
Continuous
 62
     7
370
    25
100
AcDbLine
 10
-809.352720734
 20
-196.72728125
 30
0.0
 11
-739.352720734
 21
-206.72728125
 31
0.0
  0
LINE
  5
95
330
1F
100
AcDbEntity
  8
0
  6
Continuous
 62
     7
370
    25
100
AcDbLine
 10
-809.352720734
 20
433.27271875
 30
0.0
 11
-1078.352720734
 21
433.27271875
 31
0.0
  0
LINE
  5
96
330
1F
100
AcDbEntity
  8
0
  6
Continuous
 62
     7
370
    25
100
AcDbLine
 10
-1078.352720734
 20
-196.72728125
 30
0.0
 11
-809.352720734
 21
-196.72728125
 31
0.0
  0
LINE
  5
97
330
1F
100
AcDbEntity
  8
0
  6
Continuous
 62
     7
370
    25
100
AcDbLine
 10
-674.352720734
 20
473.27271875
 30
0.0
 11
-674.352720734
 21
-236.72728125
 31
0.0
  0
LINE
  5
98
330
1F
100
AcDbEntity
  8
0
  6
Continuous
 62
     7
370
    25
100
AcDbLine
 10
-739.352720734
 20
473.27271875
 30
0.0
 11
-739.352720734
 21
-236.72728125
 31
0.0
  0
LINE
  5
99
330
1F
100
AcDbEntity
  8
0
  6
Continuous
 62
     7
370
    25
100
AcDbLine
 10
-809.352720734
 20
433.27271875
 30
0.0
 11
-809.352720734
 21
-196.72728125
 31
0.0
  0
LINE
  5
9A
330
1F
100
AcDbEntity
  8
0
  6
Continuous
 62
     7
370
    25
100
AcDbLine
 10
-1078.352720734
 20
433.27271875
 30
0.0
 11
-1078.352720734
 21
-196.72728125
 31
0.0
  0
LINE
  5
9B
330
1F
100
AcDbEntity
  8
0
  6
Continuous
 62
     7
370
    25
100
AcDbLine
 10
-219.0055913462
 20
-667.6545093972
 30
0.0
 11
-219.0055913462
 21
-732.6545093972
 31
0.0
  0
LINE
  5
9C
330
1F
100
AcDbEntity
  8
0
  6
Continuous
 62
     7
370
    25
100
AcDbLine
 10
490.9944086538
 20
-732.6545093972
 30
0.0
 11
490.9944086538
 21
-667.6545093972
 31
0.0
  0
LINE
  5
9D
330
1F
100
AcDbEntity
  8
0
  6
Continuous
 62
     7
370
    25
100
AcDbLine
 10
-189.0055913462
 20
-732.6545093972
 30
0.0
 11
-179.0055913462
 21
-802.6545093972
 31
0.0
  0
LINE
  5
9E
330
1F
100
AcDbEntity
  8
0
  6
Continuous
 62
     7
370
    25
100
AcDbLine
 10
450.9944086538
 20
-802.6545093972
 30
0.0
 11
460.9944086538
 21
-732.6545093972
 31
0.0
  0
LINE
  5
9F
330
1F
100
AcDbEntity
  8
0
  6
Continuous
 62
     7
370
    25
100
AcDbLine
 10
-179.0055913462
 20
-802.6545093972
 30
0.0
 11
-179.0055913462
 21
-1071.6545093972
 31
0.0
  0
LINE
  5
A0
330
1F
100
AcDbEntity
  8
0
  6
Continuous
 62
     7
370
    25
100
AcDbLine
 10
450.9944086538
 20
-1071.6545093972
 30
0.0
 11
450.9944086538
 21
-802.6545093972
 31
0.0
  0
LINE
  5
A1
330
1F
100
AcDbEntity
  8
0
  6
Continuous
 62
     7
370
    25
100
AcDbLine
 10
-219.0055913462
 20
-667.6545093972
 30
0.0
 11
490.9944086538
 21
-667.6545093972
 31
0.0
  0
LINE
  5
A2
330
1F
100
AcDbEntity
  8
0
  6
Continuous
 62
     7
370
    25
100
AcDbLine
 10
-219.0055913462
 20
-732.6545093972
 30
0.0
 11
490.9944086538
 21
-732.6545093972
 31
0.0
  0
LINE
  5
A3
330
1F
100
AcDbEntity
  8
0
  6
Continuous
 62
     7
370
    25
100
AcDbLine
 10
-179.0055913462
 20
-802.6545093972
 30
0.0
 11
450.9944086538
 21
-802.6545093972
 31
0.0
  0
LINE
  5
A4
330
1F
100
AcDbEntity
  8
0
  6
Continuous
 62
     7
370
    25
100
AcDbLine
 10
-179.0055913462
 20
-1071.6545093972
 30
0.0
 11
450.9944086538
 21
-1071.6545093972
 31
0.0
  0
LINE
  5
A5
330
1F
100
AcDbEntity
  8
0
  6
Continuous
 62
     7
370
    25
100
AcDbLine
 10
930.5892403263
 20
-236.72728125
 30
0.0
 11
995.5892403263
 21
-236.72728125
 31
0.0
  0
LINE
  5
A6
330
1F
100
AcDbEntity
  8
0
  6
Continuous
 62
     7
370
    25
100
AcDbLine
 10
995.5892403263
 20
473.27271875
 30
0.0
 11
930.5892403263
 21
473.27271875
 31
0.0
  0
LINE
  5
A7
330
1F
100
AcDbEntity
  8
0
  6
Continuous
 62
     7
370
    25
100
AcDbLine
 10
995.5892403263
 20
-206.72728125
 30
0.0
 11
1065.5892403263
 21
-196.72728125
 31
0.0
  0
LINE
  5
A8
330
1F
100
AcDbEntity
  8
0
  6
Continuous
 62
     7
370
    25
100
AcDbLine
 10
1065.5892403263
 20
433.27271875
 30
0.0
 11
995.5892403263
 21
443.27271875
 31
0.0
  0
LINE
  5
A9
330
1F
100
AcDbEntity
  8
0
  6
Continuous
 62
     7
370
    25
100
AcDbLine
 10
1065.5892403263
 20
-196.72728125
 30
0.0
 11
1334.5892403263
 21
-196.72728125
 31
0.0
  0
LINE
  5
AA
330
1F
100
AcDbEntity
  8
0
  6
Continuous
 62
     7
370
    25
100
AcDbLine
 10
1334.5892403263
 20
433.27271875
 30
0.0
 11
1065.5892403263
 21
433.27271875
 31
0.0
  0
LINE
  5
AB
330
1F
100
AcDbEntity
  8
0
  6
Continuous
 62
     7
370
    25
100
AcDbLine
 10
930.5892403263
 20
118.27271875
 30
0.0
 11
930.5892403263
 21
473.27271875
 31
0.0
  0
LINE
  5
AC
330
1F
100
AcDbEntity
  8
0
  6
Continuous
 62
     7
370
    25
100
AcDbLine
 10
930.5892403263
 20
-236.72728125
 30
0.0
 11
930.5892403263
 21
118.27271875
 31
0.0
  0
LINE
  5
AD
330
1F
100
AcDbEntity
  8
0
  6
Continuous
 62
     7
370
    25
100
AcDbLine
 10
995.5892403263
 20
118.27271875
 30
0.0
 11
995.5892403263
 21
473.27271875
 31
0.0
  0
LINE
  5
AE
330
1F
100
AcDbEntity
  8
0
  6
Continuous
 62
     7
370
    25
100
AcDbLine
 10
995.5892403263
 20
-236.72728125
 30
0.0
 11
995.5892403263
 21
118.27271875
 31
0.0
  0
LINE
  5
AF
330
1F
100
AcDbEntity
  8
0
  6
Continuous
 62
     7
370
    25
100
AcDbLine
 10
1065.5892403263
 20
118.27271875
 30
0.0
 11
1065.5892403263
 21
433.27271875
 31
0.0
  0
LINE
  5
B0
330
1F
100
AcDbEntity
  8
0
  6
Continuous
 62
     7
370
    25
100
AcDbLine
 10
1065.5892403263
 20
-196.72728125
 30
0.0
 11
1065.5892403263
 21
118.27271875
 31
0.0
  0
LINE
  5
B1
330
1F
100
AcDbEntity
  8
0
  6
Continuous
 62
     7
370
    25
100
AcDbLine
 10
1334.5892403263
 20
118.27271875
 30
0.0
 11
1334.5892403263
 21
433.27271875
 31
0.0
  0
LINE
  5
B2
330
1F
100
AcDbEntity
  8
0
  6
Continuous
 62
     7
370
    25
100
AcDbLine
 10
1334.5892403263
 20
-196.72728125
 30
0.0
 11
1334.5892403263
 21
118.27271875
 31
0.0
  0
LINE
  5
B3
330
1F
100
AcDbEntity
  8
0
  6
Continuous
 62
     7
370
    25
100
AcDbLine
 10
1242.1102880476
 20
-517.2625123747
 30
0.0
 11
1051.8985639084
 21
-407.4556213345
 31
0.0
  0
LINE
  5
B4
330
1F
100
AcDbEntity
  8
0
  6
Continuous
 62
     7
370
    25
100
AcDbLine
 10
736.9241631281
 20
-953.0664046343
 30
0.0
 11
927.1358872673
 21
-1062.8732956745
 31
0.0
  0
LINE
  5
B5
330
1F
100
AcDbEntity
  8
0
  6
Continuous
 62
     7
370
    25
100
AcDbLine
 10
1279.3584342713
 20
-529.1385691506
 30
0.0
 11
1234.133639763
 21
-512.6576913363
 31
0.0
  0
LINE
  5
B6
330
1F
100
AcDbEntity
  8
0
  6
Continuous
 62
     7
370
    25
100
AcDbLine
 10
919.1592389826
 20
-1058.2684746361
 30
0.0
 11
956.0473969203
 21
-1089.190395272
 31
0.0
  0
LINE
  5
B7
330
1F
100
AcDbEntity
  8
0
  6
Continuous
 62
     7
370
    25
100
AcDbLine
 10
1357.5680781605
 20
-537.7281054275
 30
0.0
 11
1311.6061373834
 21
-511.1948417932
 31
0.0
  0
LINE
  5
B8
330
1F
100
AcDbEntity
  8
0
  6
Continuous
 62
     7
370
    25
100
AcDbLine
 10
956.6349872976
 20
-1126.0895340835
 30
0.0
 11
1002.5969280747
 21
-1152.6227977177
 31
0.0
  0
LWPOLYLINE
  5
B9
330
1F
100
AcDbEntity
  8
0
  6
Continuous
 62
     7
370
    25
100
AcDbPolyline
 90
      189
 70
   128
 43
0.0
 10
671.6727274445
 20
-808.8452905965
 10
671.7971127775
 20
-800.1788063488
 10
672.1701298542
 20
-791.3783892108
 10
672.7913620618
 20
-782.4538681265
 10
673.6601155632
 20
-773.4152106487
 10
674.7754200716
 20
-764.2725118055
 10
676.1360299339
 20
-755.0359828263
 10
677.7404255223
 20
-745.7159397366
 10
679.5868149315
 20
-736.3227918367
 10
681.6731359797
 20
-726.8670300754
 10
683.9970585125
 20
-717.3592153335
 10
686.5559870044
 20
-707.8099666281
 10
689.3470634585
 20
-698.2299492529
 10
692.3671705982
 20
-688.6298628662
 10
695.6129353487
 20
-679.0204295409
 10
699.0807326045
 20
-669.4123817892
 10
702.7666892781
 20
-659.8164505757
 10
706.6666886258
 20
-650.2433533326
 10
710.7763748452
 20
-640.7037819893
 10
715.0911579408
 20
-631.208391031
 10
719.6062188498
 20
-621.7677855991
 10
724.3165148246
 20
-612.3925096466
 10
729.216785065
 20
-603.0930341619
 10
734.3015565938
 20
-593.8797454736
 10
739.5651503692
 20
-584.7629336509
 10
745.0016876279
 20
-575.7527810106
 10
750.6050964508
 20
-566.8593507447
 10
756.3691185444
 20
-558.0925756813
 10
762.2873162307
 20
-549.4622471908
 10
768.3530796371
 20
-540.9780042499
 10
774.5596340793
 20
-532.6493226767
 10
780.9000476268
 20
-524.485504547
 10
787.367238846
 20
-516.4956678049
 10
793.9539847086
 20
-508.6887360798
 10
800.6529286589
 20
-501.0734287193
 10
807.4565888305
 20
-493.6582510511
 10
814.3573664021
 20
-486.4514848835
 10
821.3475540848
 20
-479.4611792557
 10
828.4193447298
 20
-472.6951414481
 10
835.5648400485
 20
-466.1609282626
 10
842.7760594332
 20
-459.8658375824
 10
850.0449488712
 20
-453.8169002215
 10
857.3633899394
 20
-448.0208720718
 10
864.7232088719
 20
-442.4842265581
 10
872.116185689
 20
-437.2131474077
 10
879.5340633781
 20
-432.2135217441
 10
886.9685571151
 20
-427.490933512
 10
894.4113635183
 20
-423.0506572404
 10
901.8541699214
 20
-418.897652152
 10
909.2886636584
 20
-415.0365566242
 10
916.7065413475
 20
-411.4716830085
 10
924.0995181646
 20
-408.2070128144
 10
931.4593370971
 20
-405.2461922623
 10
938.7777781653
 20
-402.5925282114
 10
946.0466676033
 20
-400.2489844663
 10
953.257886988
 20
-398.2181784665
 10
960.4033823067
 20
-396.5023783636
 10
967.4751729517
 20
-395.1035004875
 10
974.4653606344
 20
-394.0231072065
 10
981.366138206
 20
-393.2624051823
 10
988.1697983776
 20
-392.822244022
 10
994.8687423279
 20
-392.7031153295
 10
1001.4554881905
 20
-392.9051521565
 10
1007.9226794097
 20
-393.4281288534
 10
1014.2630929572
 20
-394.2714613221
 10
1020.4696473994
 20
-395.4342076676
 10
1026.5354108059
 20
-396.9150692505
 10
1032.4536084921
 20
-398.7123921371
 10
1038.2176305857
 20
-400.8241689469
 10
1043.8210394086
 20
-403.2480410942
 10
1049.2575766673
 20
-405.981301423
 10
1054.5211704427
 20
-409.0208972298
 10
1059.6059419715
 20
-412.3634336734
 10
1064.5062122119
 20
-416.0051775668
 10
1069.2165081867
 20
-419.9420615462
 10
1073.7315690957
 20
-424.1696886139
 10
1078.0463521913
 20
-428.6833370494
 10
1082.1560384107
 20
-433.4779656828
 10
1086.0560377584
 20
-438.5482195248
 10
1089.741994432
 20
-443.8884357483
 10
1093.2097916878
 20
-449.4926500125
 10
1096.4555564383
 20
-455.3546031242
 10
1099.475663578
 20
-461.467748029
 10
1102.2667400321
 20
-467.8252571233
 10
1104.825668524
 20
-474.4200298798
 10
1107.1495910568
 20
-481.2447007777
 10
1109.2359121051
 20
-488.2916475297
 10
1111.0823015142
 20
-495.5529995944
 10
1112.6866971026
 20
-503.020646967
 10
1114.0473069649
 20
-510.6862492374
 10
1115.1626114733
 20
-518.5412449047
 10
1116.0313649747
 20
-526.5768609401
 10
1116.6525971823
 20
-534.7841225847
 10
1117.025614259
 20
-543.1538633734
 10
1117.149999592
 20
-551.6767353723
 10
1117.025614259
 20
-560.34321962
 10
1116.6525971823
 20
-569.1436367581
 10
1116.0313649747
 20
-578.0681578423
 10
1115.1626114733
 20
-587.1068153202
 10
1114.0473069649
 20
-596.2495141633
 10
1112.6866971026
 20
-605.4860431426
 10
1111.0823015142
 20
-614.8060862322
 10
1109.235912105
 20
-624.1992341322
 10
1107.1495910568
 20
-633.6549958934
 10
1104.825668524
 20
-643.1628106353
 10
1102.2667400321
 20
-652.7120593407
 10
1099.475663578
 20
-662.2920767159
 10
1096.4555564383
 20
-671.8921631026
 10
1093.2097916878
 20
-681.5015964279
 10
1089.741994432
 20
-691.1096441796
 10
1086.0560377584
 20
-700.7055753931
 10
1082.1560384107
 20
-710.2786726362
 10
1078.0463521913
 20
-719.8182439796
 10
1073.7315690957
 20
-729.3136349379
 10
1069.2165081867
 20
-738.7542403697
 10
1064.5062122119
 20
-748.1295163222
 10
1059.6059419715
 20
-757.428991807
 10
1054.5211704427
 20
-766.6422804953
 10
1049.2575766673
 20
-775.7590923179
 10
1043.8210394086
 20
-784.7692449583
 10
1038.2176305857
 20
-793.6626752241
 10
1032.4536084921
 20
-802.4294502875
 10
1026.5354108058
 20
-811.0597787781
 10
1020.4696473994
 20
-819.5440217189
 10
1014.2630929572
 20
-827.8727032921
 10
1007.9226794097
 20
-836.0365214219
 10
1001.4554881905
 20
-844.0263581639
 10
994.8687423279
 20
-851.833289889
 10
988.1697983776
 20
-859.4485972495
 10
981.366138206
 20
-866.8637749177
 10
974.4653606344
 20
-874.0705410854
 10
967.4751729517
 20
-881.0608467132
 10
960.4033823067
 20
-887.8268845207
 10
953.257886988
 20
-894.3610977062
 10
946.0466676033
 20
-900.6561883864
 10
938.7777781653
 20
-906.7051257474
 10
931.4593370971
 20
-912.501153897
 10
924.0995181646
 20
-918.0377994107
 10
916.7065413475
 20
-923.3088785612
 10
909.2886636584
 20
-928.3085042247
 10
901.8541699214
 20
-933.0310924569
 10
894.4113635182
 20
-937.4713687284
 10
886.9685571151
 20
-941.6243738168
 10
879.5340633781
 20
-945.4854693446
 10
872.116185689
 20
-949.0503429603
 10
864.7232088719
 20
-952.3150131544
 10
857.3633899394
 20
-955.2758337065
 10
850.0449488712
 20
-957.9294977574
 10
842.7760594332
 20
-960.2730415026
 10
835.5648400485
 20
-962.3038475023
 10
828.4193447298
 20
-964.0196476053
 10
821.3475540848
 20
-965.4185254814
 10
814.3573664021
 20
-966.4989187623
 10
807.4565888305
 20
-967.2596207865
 10
800.6529286589
 20
-967.6997819468
 10
793.9539847086
 20
-967.8189106393
 10
787.367238846
 20
-967.6168738124
 10
780.9000476268
 20
-967.0938971154
 10
774.5596340793
 20
-966.2505646467
 10
768.3530796371
 20
-965.0878183012
 10
762.2873162307
 20
-963.6069567183
 10
756.3691185444
 20
-961.8096338317
 10
750.6050964508
 20
-959.697857022
 10
745.0016876279
 20
-957.2739848746
 10
739.5651503692
 20
-954.5407245458
 10
734.3015565938
 20
-951.501128739
 10
729.216785065
 20
-948.1585922954
 10
724.3165148246
 20
-944.516848402
 10
719.6062188498
 20
-940.5799644226
 10
715.0911579408
 20
-936.3523373549
 10
710.7763748452
 20
-931.8386889194
 10
706.6666886258
 20
-927.0440602861
 10
702.7666892781
 20
-921.973806444
 10
699.0807326045
 20
-916.6335902205
 10
695.6129353487
 20
-911.0293759563
 10
692.3671705982
 20
-905.1674228446
 10
689.3470634585
 20
-899.0542779398
 10
686.5559870044
 20
-892.6967688455
 10
683.9970585125
 20
-886.1019960891
 10
681.6731359797
 20
-879.2773251911
 10
679.5868149315
 20
-872.2303784391
 10
677.7404255223
 20
-864.9690263745
 10
676.1360299339
 20
-857.5013790018
 10
674.7754200716
 20
-849.8357767315
 10
673.6601155632
 20
-841.9807810641
 10
672.7913620618
 20
-833.9451650287
 10
672.1701298542
 20
-825.7379033841
 10
671.7971127775
 20
-817.3681625955
 10
671.6727274445
 20
-808.8452905965
  0
LWPOLYLINE
  5
BA
330
1F
100
AcDbEntity
  8
0
  6
Continuous
 62
     7
370
    25
100
AcDbPolyline
 90
      171
 70
   128
 43
0.0
 10
712.1192353284
 20
-785.4960185984
 10
712.2437298883
 20
-777.6457028137
 10
712.6170435236
 20
-769.6623712568
 10
713.2386663326
 20
-761.5569281983
 10
714.1077492535
 20
-753.3404446983
 10
715.2231052235
 20
-745.024143485
 10
716.5832108004
 20
-736.6193836256
 10
718.1862082437
 20
-728.137645011
 10
720.0299080517
 20
-719.5905126759
 10
722.1117919521
 20
-710.9896609751
 10
724.4290163422
 20
-702.3468376373
 10
726.9784161719
 20
-693.6738477197
 10
729.7565092679
 20
-684.9825374831
 10
732.7595010891
 20
-676.2847782121
 10
735.9832899099
 20
-667.5924499995
 10
739.4234724226
 20
-658.91742552
 10
743.0753497516
 20
-650.2715538137
 10
746.9339338719
 20
-641.6666441014
 10
750.9939544215
 20
-633.1144496545
 10
755.2498659009
 20
-624.6266517421
 10
759.6958552468
 20
-616.2148436751
 10
764.3258497726
 20
-607.8905149715
 10
769.1335254627
 20
-599.665035663
 10
774.1123156105
 20
-591.549640765
 10
779.2554197874
 20
-583.5554149307
 10
784.5558131317
 20
-575.693277311
 10
790.0062559438
 20
-567.9739666402
 10
795.5993035744
 20
-560.4080265682
 10
801.3273165932
 20
-553.0057912589
 10
807.1824712233
 20
-545.7773712755
 10
813.1567700279
 20
-538.7326397702
 10
819.2420528334
 20
-531.8812189987
 10
825.4300078755
 20
-525.2324671779
 10
831.7121831519
 20
-518.7954657028
 10
838.0799979668
 20
-512.5790067433
 10
844.5247546512
 20
-506.5915812345
 10
851.0376504427
 20
-500.8413672795
 10
857.6097895089
 20
-495.3362189788
 10
864.2321950986
 20
-490.0836557029
 10
870.8958218021
 20
-485.0908518213
 10
877.5915679071
 20
-480.3646269036
 10
884.3102878297
 20
-475.9114364046
 10
891.0428046066
 20
-471.7373628467
 10
897.7799224299
 20
-467.8481075125
 10
904.5124392068
 20
-464.2489826569
 10
911.2311591294
 20
-460.9449042514
 10
917.9269052344
 20
-457.9403852698
 10
924.5905319379
 20
-455.2395295236
 10
931.2129375276
 20
-452.8460260568
 10
937.7850765938
 20
-450.7631441074
 10
944.2979723853
 20
-448.9937286414
 10
950.7427290697
 20
-447.5401964676
 10
957.1105438846
 20
-446.4045329361
 10
963.392719161
 20
-445.5882892267
 10
969.5806742031
 20
-445.0925802301
 10
975.6659570086
 20
-444.9180830252
 10
981.6402558132
 20
-445.0650359541
 10
987.4954104433
 20
-445.5332382968
 10
993.2234234621
 20
-446.3220505453
 10
998.8164710927
 20
-447.4303952769
 10
1004.2669139048
 20
-448.856758626
 10
1009.5673072491
 20
-450.5991923518
 10
1014.710411426
 20
-452.6553164995
 10
1019.6892015738
 20
-455.0223226509
 10
1024.4968772639
 20
-457.6969777601
 10
1029.1268717897
 20
-460.6756285701
 10
1033.5728611356
 20
-463.9542066022
 10
1037.828772615
 20
-467.5282337131
 10
1041.8887931647
 20
-471.3928282117
 10
1045.7473772849
 20
-475.5427115268
 10
1049.3992546139
 20
-479.9722154169
 10
1052.8394371266
 20
-484.6752897125
 10
1056.0632259474
 20
-489.6455105799
 10
1059.0662177686
 20
-494.8760892952
 10
1061.8443108646
 20
-500.359881517
 10
1064.3937106943
 20
-506.0893970449
 10
1066.7109350844
 20
-512.0568100496
 10
1068.7928189848
 20
-518.253969763
 10
1070.6365187928
 20
-524.6724116102
 10
1072.2395162361
 20
-531.3033687718
 10
1073.599621813
 20
-538.1377841578
 10
1074.714977783
 20
-545.166322779
 10
1075.5840607039
 20
-552.379384497
 10
1076.2056835129
 20
-559.7671171371
 10
1076.5789971482
 20
-567.3194299452
 10
1076.7034917081
 20
-575.0260073705
 10
1076.5789971482
 20
-582.8763231551
 10
1076.2056835129
 20
-590.859654712
 10
1075.5840607039
 20
-598.9650977706
 10
1074.714977783
 20
-607.1815812705
 10
1073.599621813
 20
-615.4978824838
 10
1072.2395162361
 20
-623.9026423432
 10
1070.6365187928
 20
-632.3843809578
 10
1068.7928189848
 20
-640.9315132929
 10
1066.7109350844
 20
-649.5323649938
 10
1064.3937106943
 20
-658.1751883315
 10
1061.8443108646
 20
-666.8481782492
 10
1059.0662177686
 20
-675.5394884857
 10
1056.0632259474
 20
-684.2372477567
 10
1052.8394371266
 20
-692.9295759693
 10
1049.3992546139
 20
-701.6046004488
 10
1045.7473772849
 20
-710.2504721551
 10
1041.8887931646
 20
-718.8553818675
 10
1037.828772615
 20
-727.4075763143
 10
1033.5728611356
 20
-735.8953742268
 10
1029.1268717897
 20
-744.3071822938
 10
1024.4968772639
 20
-752.6315109973
 10
1019.6892015738
 20
-760.8569903058
 10
1014.710411426
 20
-768.9723852038
 10
1009.5673072491
 20
-776.9666110381
 10
1004.2669139048
 20
-784.8287486578
 10
998.8164710927
 20
-792.5480593286
 10
993.2234234621
 20
-800.1139994007
 10
987.4954104433
 20
-807.5162347099
 10
981.6402558132
 20
-814.7446546933
 10
975.6659570086
 20
-821.7893861987
 10
969.5806742031
 20
-828.6408069701
 10
963.392719161
 20
-835.2895587909
 10
957.1105438846
 20
-841.726560266
 10
950.7427290697
 20
-847.9430192255
 10
944.2979723853
 20
-853.9304447343
 10
937.7850765938
 20
-859.6806586893
 10
931.2129375276
 20
-865.18580699
 10
924.5905319379
 20
-870.438370266
 10
917.9269052344
 20
-875.4311741475
 10
911.2311591294
 20
-880.1573990652
 10
904.5124392068
 20
-884.6105895643
 10
897.7799224299
 20
-888.7846631221
 10
891.0428046066
 20
-892.6739184563
 10
884.3102878297
 20
-896.273043312
 10
877.5915679071
 20
-899.5771217174
 10
870.8958218021
 20
-902.581640699
 10
864.2321950986
 20
-905.2824964453
 10
857.6097895089
 20
-907.675999912
 10
851.0376504427
 20
-909.7588818615
 10
844.5247546512
 20
-911.5282973274
 10
838.0799979668
 20
-912.9818295012
 10
831.7121831519
 20
-914.1174930327
 10
825.4300078755
 20
-914.9337367421
 10
819.2420528334
 20
-915.4294457387
 10
813.1567700279
 20
-915.6039429437
 10
807.1824712233
 20
-915.4569900148
 10
801.3273165932
 20
-914.988787672
 10
795.5993035744
 20
-914.1999754235
 10
790.0062559438
 20
-913.091630692
 10
784.5558131317
 20
-911.6652673429
 10
779.2554197874
 20
-909.922833617
 10
774.1123156105
 20
-907.8667094693
 10
769.1335254627
 20
-905.499703318
 10
764.3258497726
 20
-902.8250482087
 10
759.6958552468
 20
-899.8463973987
 10
755.2498659009
 20
-896.5678193666
 10
750.9939544215
 20
-892.9937922557
 10
746.9339338719
 20
-889.1291977571
 10
743.0753497516
 20
-884.9793144421
 10
739.4234724226
 20
-880.5498105519
 10
735.9832899099
 20
-875.8467362563
 10
732.7595010891
 20
-870.8765153889
 10
729.7565092679
 20
-865.6459366736
 10
726.9784161719
 20
-860.1621444518
 10
724.4290163422
 20
-854.432628924
 10
722.1117919521
 20
-848.4652159192
 10
720.0299080517
 20
-842.2680562058
 10
718.1862082437
 20
-835.8496143586
 10
716.5832108004
 20
-829.218657197
 10
715.2231052235
 20
-822.384241811
 10
714.1077492535
 20
-815.3557031898
 10
713.2386663326
 20
-808.1426414718
 10
712.6170435236
 20
-800.7549088317
 10
712.2437298883
 20
-793.2025960236
 10
712.1192353284
 20
-785.4960185984
  0
LWPOLYLINE
  5
BB
330
1F
100
AcDbEntity
  8
0
  6
Continuous
 62
     7
370
    25
100
AcDbPolyline
 90
       96
 70
   128
 43
0.0
 10
1242.1102880476
 20
-517.2625123747
 10
1244.7328945819
 20
-518.8277882699
 10
1249.8176661107
 20
-522.1703247136
 10
1254.7179363511
 20
-525.812068607
 10
1259.4282323259
 20
-529.7489525863
 10
1263.9432932349
 20
-533.9765796541
 10
1268.2580763305
 20
-538.4902280896
 10
1272.3677625499
 20
-543.2848567229
 10
1276.2677618975
 20
-548.355110565
 10
1279.9537185712
 20
-553.6953267885
 10
1283.421515827
 20
-559.2995410526
 10
1286.6672805775
 20
-565.1614941643
 10
1289.6873877172
 20
-571.2746390692
 10
1292.4784641713
 20
-577.6321481635
 10
1295.0373926632
 20
-584.2269209199
 10
1297.3613151959
 20
-591.0515918179
 10
1299.4476362442
 20
-598.0985385698
 10
1301.2940256534
 20
-605.3598906345
 10
1302.8984212418
 20
-612.8275380072
 10
1304.2590311041
 20
-620.4931402775
 10
1305.3743356124
 20
-628.3481359449
 10
1306.2430891139
 20
-636.3837519803
 10
1306.8643213215
 20
-644.5910136249
 10
1307.2373383981
 20
-652.9607544135
 10
1307.3617237312
 20
-661.4836264125
 10
1307.2373383981
 20
-670.1501106602
 10
1306.8643213215
 20
-678.9505277982
 10
1306.2430891139
 20
-687.8750488824
 10
1305.3743356124
 20
-696.9137063603
 10
1304.2590311041
 20
-706.0564052035
 10
1302.8984212418
 20
-715.2929341827
 10
1301.2940256534
 20
-724.6129772724
 10
1299.4476362442
 20
-734.0061251723
 10
1297.3613151959
 20
-743.4618869336
 10
1295.0373926632
 20
-752.9697016755
 10
1292.4784641713
 20
-762.5189503809
 10
1289.6873877172
 20
-772.0989677561
 10
1286.6672805775
 20
-781.6990541428
 10
1283.421515827
 20
-791.3084874681
 10
1279.9537185712
 20
-800.9165352198
 10
1276.2677618975
 20
-810.5124664333
 10
1272.3677625499
 20
-820.0855636764
 10
1268.2580763305
 20
-829.6251350197
 10
1263.9432932349
 20
-839.120525978
 10
1259.4282323259
 20
-848.5611314099
 10
1254.7179363511
 20
-857.9364073623
 10
1249.8176661107
 20
-867.2358828471
 10
1244.7328945819
 20
-876.4491715354
 10
1239.4693008065
 20
-885.5659833581
 10
1234.0327635477
 20
-894.5761359984
 10
1228.4293547249
 20
-903.4695662643
 10
1222.6653326313
 20
-912.2363413277
 10
1216.747134945
 20
-920.8666698182
 10
1210.6813715385
 20
-929.3509127591
 10
1204.4748170964
 20
-937.6795943322
 10
1198.1344035488
 20
-945.843412462
 10
1191.6672123296
 20
-953.8332492041
 10
1185.0804664671
 20
-961.6401809292
 10
1178.3815225168
 20
-969.2554882897
 10
1171.5778623452
 20
-976.6706659579
 10
1164.6770847736
 20
-983.8774321255
 10
1157.6868970909
 20
-990.8677377533
 10
1150.6151064459
 20
-997.6337755609
 10
1143.4696111272
 20
-1004.1679887464
 10
1136.2583917424
 20
-1010.4630794266
 10
1128.9895023045
 20
-1016.5120167875
 10
1121.6710612363
 20
-1022.3080449372
 10
1114.3112423038
 20
-1027.8446904509
 10
1106.9182654866
 20
-1033.1157696013
 10
1099.5003877976
 20
-1038.1153952649
 10
1092.0658940606
 20
-1042.837983497
 10
1084.6230876574
 20
-1047.2782597686
 10
1077.1802812543
 20
-1051.4312648569
 10
1069.7457875173
 20
-1055.2923603847
 10
1062.3279098282
 20
-1058.8572340004
 10
1054.9349330111
 20
-1062.1219041946
 10
1047.5751140786
 20
-1065.0827247467
 10
1040.2566730104
 20
-1067.7363887976
 10
1032.9877835724
 20
-1070.0799325427
 10
1025.7765641877
 20
-1072.1107385425
 10
1018.631068869
 20
-1073.8265386454
 10
1011.559278224
 20
-1075.2254165215
 10
1004.5690905413
 20
-1076.3058098025
 10
997.6683129697
 20
-1077.0665118267
 10
990.8646527981
 20
-1077.506672987
 10
984.1657088478
 20
-1077.6258016795
 10
977.5789629852
 20
-1077.4237648525
 10
971.111771766
 20
-1076.9007881556
 10
964.7713582185
 20
-1076.0574556869
 10
958.5648037763
 20
-1074.8947093414
 10
952.4990403698
 20
-1073.4138477585
 10
946.5808426836
 20
-1071.6165248719
 10
940.81682059
 20
-1069.5047480621
 10
935.2134117671
 20
-1067.0808759147
 10
929.7768745084
 20
-1064.347615586
 10
927.1358872673
 20
-1062.8732956745
  0
LWPOLYLINE
  5
BC
330
1F
100
AcDbEntity
  8
0
  6
Continuous
 62
     7
370
    25
100
AcDbPolyline
 90
       29
 70
   128
 43
0.0
 10
946.8009473442
 20
-851.6407416169
 10
947.0296982345
 20
-850.6347021945
 10
949.111582135
 20
-842.0338504936
 10
951.428806525
 20
-833.3910271559
 10
953.9782063548
 20
-824.7180372382
 10
956.7562994508
 20
-816.0267270017
 10
959.759291272
 20
-807.3289677307
 10
962.9830800928
 20
-798.636639518
 10
966.4232626055
 20
-789.9616150386
 10
970.0751399345
 20
-781.3157433323
 10
973.9337240547
 20
-772.7108336199
 10
977.9937446044
 20
-764.1586391731
 10
982.2496560837
 20
-755.6708412606
 10
986.6956454297
 20
-747.2590331936
 10
991.3256399555
 20
-738.9347044901
 10
996.1333156456
 20
-730.7092251816
 10
1001.1121057934
 20
-722.5938302836
 10
1006.2552099702
 20
-714.5996044493
 10
1011.5556033146
 20
-706.7374668296
 10
1017.0060461267
 20
-699.0181561588
 10
1022.5990937573
 20
-691.4522160867
 10
1028.327106776
 20
-684.0499807775
 10
1034.1822614062
 20
-676.8215607941
 10
1040.1565602108
 20
-669.7768292887
 10
1046.2418430163
 20
-662.9254085173
 10
1052.4297980583
 20
-656.2766566965
 10
1058.7119733347
 20
-649.8396552214
 10
1065.0797881497
 20
-643.6231962619
 10
1069.0215698751
 20
-639.9254738705
  0
LWPOLYLINE
  5
BD
330
1F
100
AcDbEntity
  8
0
  6
Continuous
 62
     7
370
    25
100
AcDbPolyline
 90
      104
 70
   128
 43
0.0
 10
1279.3584342713
 20
-529.1385691506
 10
1282.0001976543
 20
-530.1394208781
 10
1287.7059069305
 20
-532.5720345332
 10
1293.2454266943
 20
-535.3141950363
 10
1298.6127628185
 20
-538.3629351879
 10
1303.8021074901
 20
-541.7149560495
 10
1308.8078454946
 20
-545.3666305125
 10
1313.6245602919
 20
-549.3140072233
 10
1318.2470398778
 20
-553.5528148589
 10
1322.6702824232
 20
-558.0784667489
 10
1326.8895016868
 20
-562.8860658382
 10
1330.900132194
 20
-567.9704099863
 10
1334.697834177
 20
-573.3259975961
 10
1338.2784982709
 20
-578.9470335672
 10
1341.63824996
 20
-584.8274355666
 10
1344.7734537704
 20
-590.9608406099
 10
1347.6807172042
 20
-597.3406119467
 10
1350.3568944097
 20
-603.9598462421
 10
1352.799089586
 20
-610.8113810461
 10
1355.0046601162
 20
-617.8878025445
 10
1356.9712194269
 20
-625.1814535807
 10
1358.6966395709
 20
-632.6844419413
 10
1360.1790535292
 20
-640.3886488961
 10
1361.4168572318
 20
-648.285737983
 10
1362.408711293
 20
-656.3671640288
 10
1363.1535424612
 20
-664.6241823953
 10
1363.6505447798
 20
-673.047858442
 10
1363.8991804591
 20
-681.6290771936
 10
1363.8991804591
 20
-690.3585532033
 10
1363.6505447798
 20
-699.2268405999
 10
1363.1535424612
 20
-708.2243433093
 10
1362.408711293
 20
-717.3413254378
 10
1361.4168572318
 20
-726.5679218071
 10
1360.1790535292
 20
-735.894148629
 10
1358.6966395709
 20
-745.3099143085
 10
1356.9712194269
 20
-754.8050303636
 10
1355.0046601162
 20
-764.3692224502
 10
1352.799089586
 20
-773.9921414791
 10
1350.3568944097
 20
-783.6633748147
 10
1347.6807172042
 20
-793.3724575422
 10
1344.7734537704
 20
-803.1088837912
 10
1341.63824996
 20
-812.8621181039
 10
1338.2784982709
 20
-822.6216068348
 10
1334.697834177
 20
-832.3767895709
 10
1330.900132194
 20
-842.1171105587
 10
1326.8895016868
 20
-851.8320301258
 10
1322.6702824232
 20
-861.5110360861
 10
1318.2470398778
 20
-871.1436551141
 10
1313.6245602919
 20
-880.7194640783
 10
1308.8078454946
 20
-890.2281013193
 10
1303.8021074901
 20
-899.6592778621
 10
1298.6127628185
 20
-909.0027885491
 10
1293.2454266943
 20
-918.248523083
 10
1287.7059069305
 20
-927.386476967
 10
1282.0001976543
 20
-936.4067623299
 10
1276.1344728211
 20
-945.2996186256
 10
1270.1150795333
 20
-954.0554231948
 10
1263.9485311732
 20
-962.6647016772
 10
1257.6415003544
 20
-971.1181382634
 10
1251.2008117018
 20
-979.4065857753
 10
1244.6334344671
 20
-987.5210755638
 10
1237.9464749872
 20
-995.4528272138
 10
1231.1471689951
 20
-1003.1932580447
 10
1224.24287379
 20
-1010.7339923979
 10
1217.2410602766
 20
-1018.0668706995
 10
1210.1493048807
 20
-1025.1839582896
 10
1202.9752813512
 20
-1032.0775540082
 10
1195.7267524565
 20
-1038.7401985283
 10
1188.411561585
 20
-1045.1646824273
 10
1181.0376242574
 20
-1051.3440539884
 10
1173.6129195623
 20
-1057.2716267222
 10
1166.1454815217
 20
-1062.9409866026
 10
1158.6433903981
 20
-1068.3459990068
 10
1151.1147639507
 20
-1073.4808153536
 10
1143.5677486519
 20
-1078.3398794315
 10
1136.0105108721
 20
-1082.9179334117
 10
1128.4512280427
 20
-1087.2100235364
 10
1120.8980798085
 20
-1091.21150548
 10
1113.3592391759
 20
-1094.9180493742
 10
1105.8428636696
 20
-1098.3256444929
 10
1098.3570865057
 20
-1101.4306035926
 10
1090.9100077906
 20
-1104.229566902
 10
1083.5096857568
 20
-1106.7195057575
 10
1076.1641280426
 20
-1108.8977258803
 10
1068.8812830278
 20
-1110.761870292
 10
1061.6690312329
 20
-1112.309921865
 10
1054.5351767921
 20
-1113.5402055049
 10
1047.4874390081
 20
-1114.4513899634
 10
1040.5334439999
 20
-1115.0424892786
 10
1033.6807164505
 20
-1115.3128638419
 10
1026.9366714649
 20
-1115.26222109
 10
1020.3086065463
 20
-1114.8906158219
 10
1013.8036936998
 20
-1114.1984501389
 10
1007.4289716719
 20
-1113.1864730103
 10
1001.1913383338
 20
-1111.8557794622
 10
995.0975432179
 20
-1110.2078093932
 10
989.154180214
 20
-1108.2443460161
 10
983.3676804344
 20
-1105.9675139282
 10
977.7443052549
 20
-1103.3797768125
 10
972.29013954
 20
-1100.4839347721
 10
967.0110850579
 20
-1097.2831212997
 10
961.9128540953
 20
-1093.7807998874
 10
957.0009632756
 20
-1089.980760279
 10
956.0473969203
 20
-1089.190395272
  0
LWPOLYLINE
  5
BE
330
1F
100
AcDbEntity
  8
0
  6
Continuous
 62
     7
370
    25
100
AcDbPolyline
 90
      102
 70
   128
 43
0.0
 10
1357.5680781605
 20
-537.7281054275
 10
1357.5825031176
 20
-537.7364341314
 10
1363.0703273189
 20
-541.1077985745
 10
1368.3775646301
 20
-544.7792410806
 10
1373.4989774487
 20
-548.7471383791
 10
1378.4295115586
 20
-553.0075746346
 10
1383.1643011179
 20
-557.5563453107
 10
1387.6986734609
 20
-562.3889613201
 10
1392.0281537096
 20
-567.500653454
 10
1396.1484691897
 20
-572.8863770897
 10
1400.0555536472
 20
-578.540817168
 10
1403.7455512616
 20
-584.4583934393
 10
1407.2148204505
 20
-590.6332659702
 10
1410.4599374643
 20
-597.059340907
 10
1413.4776997642
 20
-603.7302764896
 10
1416.2651291831
 20
-610.6394893101
 10
1418.8194748648
 20
-617.7801608094
 10
1421.1382159785
 20
-625.1452440069
 10
1423.2190642065
 20
-632.7274704547
 10
1425.059966003
 20
-640.5193574107
 10
1426.6591046201
 20
-648.5132152233
 10
1428.0149019011
 20
-656.7011549198
 10
1429.1260198377
 20
-665.0750959923
 10
1429.9913618907
 20
-673.626774372
 10
1430.610074072
 20
-682.3477505847
 10
1430.9815457873
 20
-691.2294180799
 10
1431.1054104388
 20
-700.2630117241
 10
1430.9815457873
 20
-709.4396164508
 10
1430.610074072
 20
-718.7501760593
 10
1429.9913618907
 20
-728.1855021512
 10
1429.1260198377
 20
-737.7362831988
 10
1428.0149019011
 20
-747.3930937343
 10
1426.6591046201
 20
-757.1464036515
 10
1425.059966003
 20
-766.9865876112
 10
1423.2190642065
 20
-776.9039345398
 10
1421.1382159785
 20
-786.8886572132
 10
1418.8194748648
 20
-796.9309019155
 10
1416.2651291831
 20
-807.0207581637
 10
1413.4776997642
 20
-817.1482684878
 10
1410.4599374643
 20
-827.3034382579
 10
1407.2148204505
 20
-837.4762455474
 10
1403.7455512616
 20
-847.6566510237
 10
1400.0555536472
 20
-857.8346078558
 10
1396.1484691897
 20
-868.0000716289
 10
1392.0281537096
 20
-878.1430102577
 10
1387.6986734609
 20
-888.2534138862
 10
1383.1643011179
 20
-898.3213047669
 10
1378.4295115586
 20
-908.3367471068
 10
1373.4989774487
 20
-918.2898568736
 10
1368.3775646301
 20
-928.1708115495
 10
1363.0703273189
 20
-937.9698598253
 10
1357.5825031176
 20
-947.6773312234
 10
1351.9195078462
 20
-957.2836456415
 10
1346.0869301972
 20
-966.779322807
 10
1340.0905262206
 20
-976.154991633
 10
1333.9362136433
 20
-985.4013994663
 10
1327.6300660286
 20
-994.5094212187
 10
1321.178306783
 20
-1003.4700683724
 10
1314.5873030139
 20
-1012.2744978504
 10
1307.8635592462
 20
-1020.9140207439
 10
1301.0137110033
 20
-1029.3801108868
 10
1294.0445182585
 20
-1037.6644132703
 10
1286.9628587635
 20
-1045.758752288
 10
1279.7757212613
 20
-1053.6551398046
 10
1272.4901985888
 20
-1061.345783039
 10
1265.1134806775
 20
-1068.8230922548
 10
1257.6528474573
 20
-1076.0796882506
 10
1250.1156616723
 20
-1083.1084096422
 10
1242.5093616151
 20
-1089.9023199301
 10
1234.8414537855
 20
-1096.4547143452
 10
1227.1195054826
 20
-1102.7591264653
 10
1219.3511373373
 20
-1108.8093345967
 10
1211.5440157909
 20
-1114.5993679145
 10
1203.7058455299
 20
-1120.1235123547
 10
1195.8443618821
 20
-1125.3763162539
 10
1187.9673231826
 20
-1130.3525957287
 10
1180.0825031176
 20
-1135.047439792
 10
1172.1976830527
 20
-1139.4562151997
 10
1164.3206443532
 20
-1143.5745710226
 10
1156.4591607053
 20
-1147.3984429408
 10
1148.6209904443
 20
-1150.9240572543
 10
1140.813868898
 20
-1154.1479346075
 10
1133.0455007526
 20
-1157.0668934226
 10
1125.3235524498
 20
-1159.6780530397
 10
1117.6556446201
 20
-1161.9788365595
 10
1110.0493445629
 20
-1163.9669733865
 10
1102.5121587779
 20
-1165.6405014697
 10
1095.0515255577
 20
-1166.9977692388
 10
1087.6748076464
 20
-1168.0374372344
 10
1080.389284974
 20
-1168.7584794298
 10
1073.2021474718
 20
-1169.1601842433
 10
1066.1204879768
 20
-1169.2421552409
 10
1059.1512952319
 20
-1169.004311527
 10
1052.301446989
 20
-1168.4468878246
 10
1045.5777032214
 20
-1167.5704342437
 10
1038.9866994522
 20
-1166.3758157381
 10
1032.5349402066
 20
-1164.8642112521
 10
1026.228792592
 20
-1163.0371125567
 10
1020.0744800146
 20
-1160.8963227779
 10
1014.078076038
 20
-1158.4439546166
 10
1008.2454983891
 20
-1155.6824282642
 10
1002.5969280747
 20
-1152.6227977177
  0
LWPOLYLINE
  5
BF
330
1F
100
AcDbEntity
  8
0
  6
Continuous
 62
     7
370
    25
100
AcDbPolyline
 90
      133
 70
   128
 43
0.0
 10
1209.7475835321
 20
-498.579920728
 10
1211.6909066802
 20
-498.1771380413
 10
1219.1515399004
 20
-496.8198702722
 10
1226.5282578117
 20
-495.7802022766
 10
1233.8137804841
 20
-495.0591600812
 10
1241.0009179863
 20
-494.6574552676
 10
1248.0825774813
 20
-494.5754842701
 10
1255.0517702262
 20
-494.813327984
 10
1261.9016184691
 20
-495.3707516864
 10
1268.6253622367
 20
-496.2472052673
 10
1275.2163660059
 20
-497.4418237729
 10
1281.6681252515
 20
-498.9534282589
 10
1287.9742728661
 20
-500.7805269542
 10
1294.1285854435
 20
-502.9213167331
 10
1300.1249894201
 20
-505.3736848943
 10
1305.957567069
 20
-508.1352112467
 10
1311.6205623405
 20
-511.2031704972
 10
1317.1083865418
 20
-514.5745349403
 10
1322.415623853
 20
-518.2459774463
 10
1327.5370366716
 20
-522.2138747449
 10
1332.4675707815
 20
-526.4743110003
 10
1337.2023603408
 20
-531.0230816765
 10
1341.7367326838
 20
-535.8556976858
 10
1346.0662129325
 20
-540.9673898198
 10
1350.1865284126
 20
-546.3531134555
 10
1354.0936128701
 20
-552.0075535338
 10
1357.7836104844
 20
-557.925129805
 10
1361.2528796734
 20
-564.1000023359
 10
1364.4979966872
 20
-570.5260772728
 10
1367.5157589871
 20
-577.1970128554
 10
1370.303188406
 20
-584.1062256758
 10
1372.8575340877
 20
-591.2468971751
 10
1375.1762752013
 20
-598.6119803726
 10
1377.2571234294
 20
-606.1942068205
 10
1379.0980252259
 20
-613.9860937765
 10
1380.697163843
 20
-621.979951589
 10
1382.052961124
 20
-630.1678912855
 10
1383.1640790606
 20
-638.541832358
 10
1384.0294211136
 20
-647.0935107377
 10
1384.6481332948
 20
-655.8144869505
 10
1385.0196050101
 20
-664.6961544457
 10
1385.1434696617
 20
-673.7297480898
 10
1385.0196050101
 20
-682.9063528166
 10
1384.6481332948
 20
-692.2169124251
 10
1384.0294211136
 20
-701.652238517
 10
1383.1640790606
 20
-711.2030195645
 10
1382.052961124
 20
-720.8598301
 10
1380.697163843
 20
-730.6131400173
 10
1379.0980252259
 20
-740.453323977
 10
1377.2571234294
 20
-750.3706709056
 10
1375.1762752013
 20
-760.3553935789
 10
1372.8575340877
 20
-770.3976382813
 10
1370.303188406
 20
-780.4874945295
 10
1367.5157589871
 20
-790.6150048536
 10
1364.4979966872
 20
-800.7701746237
 10
1361.2528796734
 20
-810.9429819132
 10
1357.7836104844
 20
-821.1233873895
 10
1354.0936128701
 20
-831.3013442215
 10
1350.1865284126
 20
-841.4668079947
 10
1346.0662129325
 20
-851.6097466234
 10
1341.7367326838
 20
-861.720150252
 10
1337.2023603408
 20
-871.7880411327
 10
1332.4675707815
 20
-881.8034834726
 10
1327.5370366716
 20
-891.7565932393
 10
1322.415623853
 20
-901.6375479153
 10
1317.1083865418
 20
-911.4365961911
 10
1311.6205623405
 20
-921.1440675892
 10
1305.957567069
 20
-930.7503820072
 10
1300.1249894201
 20
-940.2460591727
 10
1294.1285854435
 20
-949.6217279987
 10
1287.9742728661
 20
-958.868135832
 10
1281.6681252515
 20
-967.9761575845
 10
1275.2163660059
 20
-976.9368047382
 10
1268.6253622367
 20
-985.7412342162
 10
1261.9016184691
 20
-994.3807571097
 10
1255.0517702262
 20
-1002.8468472526
 10
1248.0825774813
 20
-1011.131149636
 10
1241.0009179863
 20
-1019.2254886538
 10
1233.8137804841
 20
-1027.1218761704
 10
1226.5282578117
 20
-1034.8125194048
 10
1219.1515399004
 20
-1042.2898286206
 10
1211.6909066802
 20
-1049.5464246164
 10
1204.1537208952
 20
-1056.5751460079
 10
1196.547420838
 20
-1063.3690562959
 10
1188.8795130083
 20
-1069.921450711
 10
1181.1575647055
 20
-1076.2258628311
 10
1173.3891965601
 20
-1082.2760709625
 10
1165.5820750138
 20
-1088.0661042802
 10
1157.7439047528
 20
-1093.5902487205
 10
1149.8824211049
 20
-1098.8430526197
 10
1142.0053824054
 20
-1103.8193320944
 10
1134.1205623405
 20
-1108.5141761578
 10
1126.2357422755
 20
-1112.9229515655
 10
1118.358703576
 20
-1117.0413073884
 10
1110.4972199282
 20
-1120.8651793065
 10
1102.6590496672
 20
-1124.39079362
 10
1094.8519281209
 20
-1127.6146709732
 10
1087.0835599755
 20
-1130.5336297883
 10
1079.3616116727
 20
-1133.1447894055
 10
1071.693703843
 20
-1135.4455729253
 10
1064.0874037858
 20
-1137.4337097523
 10
1056.5502180008
 20
-1139.1072378354
 10
1049.0895847806
 20
-1140.4645056045
 10
1041.7128668693
 20
-1141.5041736002
 10
1034.4273441969
 20
-1142.2252157956
 10
1027.2402066947
 20
-1142.6269206091
 10
1020.1585471997
 20
-1142.7088916067
 10
1013.1893544548
 20
-1142.4710478927
 10
1006.3395062119
 20
-1141.9136241904
 10
999.6157624442
 20
-1141.0371706095
 10
993.0247586751
 20
-1139.8425521039
 10
986.5729994295
 20
-1138.3309476178
 10
980.2668518148
 20
-1136.5038489225
 10
974.1125392375
 20
-1134.3630591437
 10
968.1161352609
 20
-1131.9106909824
 10
962.2835576119
 20
-1129.14916463
 10
956.6205623405
 20
-1126.0812053795
 10
951.1327381392
 20
-1122.7098409364
 10
945.825500828
 20
-1119.0383984304
 10
940.7040880094
 20
-1115.0705011318
 10
935.7735538995
 20
-1110.8100648764
 10
931.0387643402
 20
-1106.2612942002
 10
926.5043919972
 20
-1101.4286781909
 10
922.1749117485
 20
-1096.3169860569
 10
918.0545962684
 20
-1090.9312624213
 10
914.1475118109
 20
-1085.276822343
 10
910.4575141965
 20
-1079.3592460717
 10
906.9882450076
 20
-1073.1843735408
 10
903.7431279938
 20
-1066.758298604
 10
900.7253656939
 20
-1060.0873630213
 10
897.937936275
 20
-1053.1781502009
 10
895.3835905933
 20
-1046.0374787016
 10
894.7731827517
 20
-1044.1907040278
  0
ENDSEC
  0
SECTION
  2
OBJECTS
  0
DICTIONARY
  5
C
330
0
100
AcDbDictionary
281
     1
  3
ACAD_GROUP
350
D
  3
ACAD_LAYOUT
350
1A
  3
ACAD_MLINESTYLE
350
17
  3
ACAD_PLOTSETTINGS
350
19
  3
ACAD_PLOTSTYLENAME
350
E
  3
ACAD_SCALELIST
350
47
  0
DICTIONARY
  5
D
102
{ACAD_REACTORS
330
C
102
}
330
C
100
AcDbDictionary
281
     1
  0
DICTIONARY
  5
1A
102
{ACAD_REACTORS
330
C
102
}
330
C
100
AcDbDictionary
281
     1
  3
Layout1
350
1E
  3
Layout2
350
26
  3
Model
350
22
  0
DICTIONARY
  5
17
102
{ACAD_REACTORS
330
C
102
}
330
C
100
AcDbDictionary
281
     1
  3
Standard
350
18
  0
DICTIONARY
  5
19
102
{ACAD_REACTORS
330
C
102
}
330
C
100
AcDbDictionary
281
     1
  0
ACDBDICTIONARYWDFLT
  5
E
102
{ACAD_REACTORS
330
C
102
}
330
C
100
AcDbDictionary
281
     1
  3
Normal
350
F
100
AcDbDictionaryWithDefault
340
F
  0
DICTIONARY
  5
47
102
{ACAD_REACTORS
330
C
102
}
330
C
100
AcDbDictionary
281
     1
  3
A0
350
48
  3
A1
350
49
  3
A2
350
4A
  3
A3
350
4B
  3
A4
350
4C
  3
A5
350
4D
  3
A6
350
4E
  3
A7
350
4F
  3
A8
350
50
  3
A9
350
51
  3
B0
350
52
  3
B1
350
53
  3
B2
350
54
  3
B3
350
55
  3
B4
350
56
  3
B5
350
57
  3
B6
350
58
  3
B7
350
59
  3
B8
350
5A
  3
B9
350
5B
  3
C0
350
5C
  3
C1
350
5D
  3
C2
350
5E
  3
C3
350
5F
  3
C4
350
60
  3
C5
350
61
  3
C6
350
62
  3
C7
350
63
  3
C8
350
64
  3
C9
350
65
  3
D0
350
66
  3
D1
350
67
  3
D2
350
68
  0
LAYOUT
  5
1E
102
{ACAD_REACTORS
330
1A
102
}
330
1A
100
AcDbPlotSettings
  1

  2
none_device
  4

  6

 40
0.0
 41
0.0
 42
0.0
 43
0.0
 44
0.0
 45
0.0
 46
0.0
 47
0.0
 48
0.0
 49
0.0
140
0.0
141
0.0
142
1.0
143
1.0
 70
   688
 72
     1
 73
     0
 74
     5
  7

 75
    16
147
1.0
148
0.0
149
0.0
100
AcDbLayout
  1
Layout1
 70
     1
 71
     1
 10
0.0
 20
0.0
 11
420.0
 21
297.0
 12
0.0
 22
0.0
 32
0.0
 14
1.0000000000E+20
 24
1.0000000000E+20
 34
1.0000000000E+20
 15
-1.0000000000E+20
 25
-1.0000000000E+20
 35
-1.0000000000E+20
146
0.0
 13
0.0
 23
0.0
 33
0.0
 16
1.0
 26
0.0
 36
0.0
 17
0.0
 27
1.0
 37
0.0
 76
     0
330
1B
  0
LAYOUT
  5
26
102
{ACAD_REACTORS
330
1A
102
}
330
1A
100
AcDbPlotSettings
  1

  2
none_device
  4

  6

 40
0.0
 41
0.0
 42
0.0
 43
0.0
 44
0.0
 45
0.0
 46
0.0
 47
0.0
 48
0.0
 49
0.0
140
0.0
141
0.0
142
1.0
143
1.0
 70
   688
 72
     1
 73
     0
 74
     5
  7

 75
    16
147
1.0
148
0.0
149
0.0
100
AcDbLayout
  1
Layout2
 70
     1
 71
     2
 10
0.0
 20
0.0
 11
0.0
 21
0.0
 12
0.0
 22
0.0
 32
0.0
 14
0.0
 24
0.0
 34
0.0
 15
0.0
 25
0.0
 35
0.0
146
0.0
 13
0.0
 23
0.0
 33
0.0
 16
1.0
 26
0.0
 36
0.0
 17
0.0
 27
1.0
 37
0.0
 76
     0
330
23
  0
LAYOUT
  5
22
102
{ACAD_REACTORS
330
1A
102
}
330
1A
100
AcDbPlotSettings
  1

  2
none_device
  4
Letter_(8.50_x_11.00_Inches)
  6

 40
6.35
 41
6.35
 42
6.35000508
 43
6.35000508
 44
215.9
 45
279.4
 46
0.0
 47
0.0
 48
0.0
 49
0.0
140
0.0
141
0.0
142
1.0
143
1.0
 70
  1712
 72
     1
 73
     0
 74
     0
  7

 75
     0
147
1.0
148
0.0
149
0.0
100
AcDbLayout
  1
Model
 70
     1
 71
     0
 10
0.0
 20
0.0
 11
279.4
 21
215.9
 12
0.0
 22
0.0
 32
0.0
 14
0.0
 24
0.0
 34
0.0
 15
279.4
 25
215.9
 35
0.0
146
0.0
 13
0.0
 23
0.0
 33
0.0
 16
1.0
 26
0.0
 36
0.0
 17
0.0
 27
1.0
 37
0.0
 76
     0
330
1F
331
29
  0
MLINESTYLE
  5
18
102
{ACAD_REACTORS
330
17
102
}
330
17
100
AcDbMlineStyle
  2
Standard
 70
     0
  3

 62
   256
 51
90.0
 52
90.0
 71
     2
 49
0.5
 62
   256
  6
BYLAYER
 49
-0.5
 62
   256
  6
BYLAYER
  0
ACDBPLACEHOLDER
  5
F
102
{ACAD_REACTORS
330
E
102
}
330
E
  0
SCALE
  5
48
102
{ACAD_REACTORS
330
47
102
}
330
47
100
AcDbScale
 70
     0
300
1:1
140
1.0
141
1.0
290
     1
  0
SCALE
  5
49
102
{ACAD_REACTORS
330
47
102
}
330
47
100
AcDbScale
 70
     0
300
1:2
140
1.0
141
2.0
290
     0
  0
SCALE
  5
4A
102
{ACAD_REACTORS
330
47
102
}
330
47
100
AcDbScale
 70
     0
300
1:4
140
1.0
141
4.0
290
     0
  0
SCALE
  5
4B
102
{ACAD_REACTORS
330
47
102
}
330
47
100
AcDbScale
 70
     0
300
1:5
140
1.0
141
5.0
290
     0
  0
SCALE
  5
4C
102
{ACAD_REACTORS
330
47
102
}
330
47
100
AcDbScale
 70
     0
300
1:8
140
1.0
141
8.0
290
     0
  0
SCALE
  5
4D
102
{ACAD_REACTORS
330
47
102
}
330
47
100
AcDbScale
 70
     0
300
1:10
140
1.0
141
10.0
290
     0
  0
SCALE
  5
4E
102
{ACAD_REACTORS
330
47
102
}
330
47
100
AcDbScale
 70
     0
300
1:16
140
1.0
141
16.0
290
     0
  0
SCALE
  5
4F
102
{ACAD_REACTORS
330
47
102
}
330
47
100
AcDbScale
 70
     0
300
1:20
140
1.0
141
20.0
290
     0
  0
SCALE
  5
50
102
{ACAD_REACTORS
330
47
102
}
330
47
100
AcDbScale
 70
     0
300
1:30
140
1.0
141
30.0
290
     0
  0
SCALE
  5
51
102
{ACAD_REACTORS
330
47
102
}
330
47
100
AcDbScale
 70
     0
300
1:40
140
1.0
141
40.0
290
     0
  0
SCALE
  5
52
102
{ACAD_REACTORS
330
47
102
}
330
47
100
AcDbScale
 70
     0
300
1:50
140
1.0
141
50.0
290
     0
  0
SCALE
  5
53
102
{ACAD_REACTORS
330
47
102
}
330
47
100
AcDbScale
 70
     0
300
1:100
140
1.0
141
100.0
290
     0
  0
SCALE
  5
54
102
{ACAD_REACTORS
330
47
102
}
330
47
100
AcDbScale
 70
     0
300
2:1
140
2.0
141
1.0
290
     0
  0
SCALE
  5
55
102
{ACAD_REACTORS
330
47
102
}
330
47
100
AcDbScale
 70
     0
300
4:1
140
4.0
141
1.0
290
     0
  0
SCALE
  5
56
102
{ACAD_REACTORS
330
47
102
}
330
47
100
AcDbScale
 70
     0
300
8:1
140
8.0
141
1.0
290
     0
  0
SCALE
  5
57
102
{ACAD_REACTORS
330
47
102
}
330
47
100
AcDbScale
 70
     0
300
10:1
140
10.0
141
1.0
290
     0
  0
SCALE
  5
58
102
{ACAD_REACTORS
330
47
102
}
330
47
100
AcDbScale
 70
     0
300
100:1
140
100.0
141
1.0
290
     0
  0
SCALE
  5
59
102
{ACAD_REACTORS
330
47
102
}
330
47
100
AcDbScale
 70
     0
300
1/128" = 1'-0"
140
0.0078125
141
12.0
290
     0
  0
SCALE
  5
5A
102
{ACAD_REACTORS
330
47
102
}
330
47
100
AcDbScale
 70
     0
300
1/64" = 1'-0"
140
0.015625
141
12.0
290
     0
  0
SCALE
  5
5B
102
{ACAD_REACTORS
330
47
102
}
330
47
100
AcDbScale
 70
     0
300
1/32" = 1'-0"
140
0.03125
141
12.0
290
     0
  0
SCALE
  5
5C
102
{ACAD_REACTORS
330
47
102
}
330
47
100
AcDbScale
 70
     0
300
1/16" = 1'-0"
140
0.0625
141
12.0
290
     0
  0
SCALE
  5
5D
102
{ACAD_REACTORS
330
47
102
}
330
47
100
AcDbScale
 70
     0
300
3/32" = 1'-0"
140
0.09375
141
12.0
290
     0
  0
SCALE
  5
5E
102
{ACAD_REACTORS
330
47
102
}
330
47
100
AcDbScale
 70
     0
300
1/8" = 1'-0"
140
0.125
141
12.0
290
     0
  0
SCALE
  5
5F
102
{ACAD_REACTORS
330
47
102
}
330
47
100
AcDbScale
 70
     0
300
3/16" = 1'-0"
140
0.1875
141
12.0
290
     0
  0
SCALE
  5
60
102
{ACAD_REACTORS
330
47
102
}
330
47
100
AcDbScale
 70
     0
300
1/4" = 1'-0"
140
0.25
141
12.0
290
     0
  0
SCALE
  5
61
102
{ACAD_REACTORS
330
47
102
}
330
47
100
AcDbScale
 70
     0
300
3/8" = 1'-0"
140
0.375
141
12.0
290
     0
  0
SCALE
  5
62
102
{ACAD_REACTORS
330
47
102
}
330
47
100
AcDbScale
 70
     0
300
1/2" = 1'-0"
140
0.5
141
12.0
290
     0
  0
SCALE
  5
63
102
{ACAD_REACTORS
330
47
102
}
330
47
100
AcDbScale
 70
     0
300
3/4" = 1'-0"
140
0.75
141
12.0
290
     0
  0
SCALE
  5
64
102
{ACAD_REACTORS
330
47
102
}
330
47
100
AcDbScale
 70
     0
300
1" = 1'-0"
140
1.0
141
12.0
290
     0
  0
SCALE
  5
65
102
{ACAD_REACTORS
330
47
102
}
330
47
100
AcDbScale
 70
     0
300
1-1/2" = 1'-0"
140
1.5
141
12.0
290
     0
  0
SCALE
  5
66
102
{ACAD_REACTORS
330
47
102
}
330
47
100
AcDbScale
 70
     0
300
3" = 1'-0"
140
3.0
141
12.0
290
     0
  0
SCALE
  5
67
102
{ACAD_REACTORS
330
47
102
}
330
47
100
AcDbScale
 70
     0
300
6" = 1'-0"
140
6.0
141
12.0
290
     0
  0
SCALE
  5
68
102
{ACAD_REACTORS
330
47
102
}
330
47
100
AcDbScale
 70
     0
300
1'-0" = 1'-0"
140
12.0
141
12.0
290
     0
  0
ENDSEC
  0
EOF
